ISO-10303-21;
HEADER;
FILE_DESCRIPTION (( 'STEP AP203' ),
    '1' );
FILE_NAME ('Entry thread seal - Metric and NPT.50 Metric and 1-1[2 NPT.STEP',
    '2013-02-07T10:14:34',
    ( '' ),
    ( '' ),
    'SwSTEP 2.0',
    'SolidWorks 2012',
    '' );
FILE_SCHEMA (( 'CONFIG_CONTROL_DESIGN' ));
ENDSEC;

DATA;
#1 = EDGE_LOOP ( 'NONE', ( #164, #165, #166, #167 ) ) ;
#2 = DIRECTION ( 'NONE',  ( 0.0000000000000000000, 0.0000000000000000000, 1.000000000000000000 ) ) ;
#3 = AXIS2_PLACEMENT_3D ( 'NONE', #27, #28, #7 ) ;
#4 = DESIGN_CONTEXT ( 'detailed design', #97, 'design' ) ;
#5 = PRODUCT_DEFINITION_SHAPE ( 'NONE', 'NONE',  #127 ) ;
#6 = CARTESIAN_POINT ( 'NONE',  ( -39.90653472252495200, 0.0000000000000000000, 31.69999999999999900 ) ) ;
#7 = DIRECTION ( 'NONE',  ( 0.0000000000000000000, 0.0000000000000000000, 1.000000000000000000 ) ) ;
#8 = DIRECTION ( 'NONE',  ( -1.000000000000000000, -0.0000000000000000000, -0.0000000000000000000 ) ) ;
#9 = DIRECTION ( 'NONE',  ( -1.000000000000000000, -0.0000000000000000000, -0.0000000000000000000 ) ) ;
#10 = DIRECTION ( 'NONE',  ( 0.0000000000000000000, 0.0000000000000000000, 1.000000000000000000 ) ) ;
#11 = DIRECTION ( 'NONE',  ( -1.000000000000000000, -0.0000000000000000000, -0.0000000000000000000 ) ) ;
#12 = DIRECTION ( 'NONE',  ( -1.000000000000000000, -0.0000000000000000000, -0.0000000000000000000 ) ) ;
#13 = CARTESIAN_POINT ( 'NONE',  ( 0.9999999999999940000, 0.0000000000000000000, 0.0000000000000000000 ) ) ;
#14 = CARTESIAN_POINT ( 'NONE',  ( -39.90653472252495200, 3.086109933851330200E-015, -25.19999999999999900 ) ) ;
#15 = DIRECTION ( 'NONE',  ( 0.0000000000000000000, 0.0000000000000000000, 1.000000000000000000 ) ) ;
#16 = DIRECTION ( 'NONE',  ( -1.000000000000000000, -0.0000000000000000000, -0.0000000000000000000 ) ) ;
#17 = CARTESIAN_POINT ( 'NONE',  ( 0.9999999999999940000, 0.0000000000000000000, 0.0000000000000000000 ) ) ;
#18 = CARTESIAN_POINT ( 'NONE',  ( -1.000000000000000900, 0.0000000000000000000, 0.0000000000000000000 ) ) ;
#19 = DIRECTION ( 'NONE',  ( -1.000000000000000000, -0.0000000000000000000, -0.0000000000000000000 ) ) ;
#20 = DIRECTION ( 'NONE',  ( 0.0000000000000000000, 0.0000000000000000000, 1.000000000000000000 ) ) ;
#21 = DIRECTION ( 'NONE',  ( -1.000000000000000000, -0.0000000000000000000, -0.0000000000000000000 ) ) ;
#22 = CARTESIAN_POINT ( 'NONE',  ( -1.000000000000000900, 0.0000000000000000000, 0.0000000000000000000 ) ) ;
#23 = DIRECTION ( 'NONE',  ( 0.0000000000000000000, 0.0000000000000000000, 1.000000000000000000 ) ) ;
#24 = DIRECTION ( 'NONE',  ( -1.000000000000000000, -0.0000000000000000000, -0.0000000000000000000 ) ) ;
#25 = CARTESIAN_POINT ( 'NONE',  ( -39.90653472252495200, 0.0000000000000000000, 25.19999999999999900 ) ) ;
#26 = DIRECTION ( 'NONE',  ( -1.000000000000000000, -0.0000000000000000000, -0.0000000000000000000 ) ) ;
#27 = CARTESIAN_POINT ( 'NONE',  ( -1.000000000000000900, 0.0000000000000000000, 0.0000000000000000000 ) ) ;
#28 = DIRECTION ( 'NONE',  ( -1.000000000000000000, -0.0000000000000000000, -0.0000000000000000000 ) ) ;
#29 = PLANE ( 'NONE',  #118 ) ;
#30 = DIRECTION ( 'NONE',  ( -1.000000000000000000, -0.0000000000000000000, -0.0000000000000000000 ) ) ;
#31 = DIRECTION ( 'NONE',  ( 0.0000000000000000000, 0.0000000000000000000, 1.000000000000000000 ) ) ;
#32 = CARTESIAN_POINT ( 'NONE',  ( 0.9999999999999965600, 25.19999999999999900, 0.0000000000000000000 ) ) ;
#33 = CARTESIAN_POINT ( 'NONE',  ( -39.90653472252495200, 3.882130353297110200E-015, -31.69999999999999900 ) ) ;
#34 = DIRECTION ( 'NONE',  ( 0.0000000000000000000, 0.0000000000000000000, 1.000000000000000000 ) ) ;
#35 = CARTESIAN_POINT ( 'NONE',  ( 0.9999999999999940000, 0.0000000000000000000, 0.0000000000000000000 ) ) ;
#36 = CARTESIAN_POINT ( 'NONE',  ( -1.000000000000000900, 0.0000000000000000000, 0.0000000000000000000 ) ) ;
#37 = UNCERTAINTY_MEASURE_WITH_UNIT (LENGTH_MEASURE( 1.000000000000000100E-005 ), #89, 'distance_accuracy_value', 'NONE');
#38 = MANIFOLD_SOLID_BREP ( 'Revolve1', #42 ) ;
#39 = ADVANCED_BREP_SHAPE_REPRESENTATION ( 'Entry thread seal - Metric and NPT.50 Metric and 1-1[2 NPT', ( #38, #125 ), #119 ) ;
#40 = EDGE_LOOP ( 'NONE', ( #168, #169 ) ) ;
#41 = EDGE_LOOP ( 'NONE', ( #176, #177 ) ) ;
#42 = CLOSED_SHELL ( 'NONE', ( #61, #57, #58, #59, #60, #56 ) ) ;
#43 = DIRECTION ( 'NONE',  ( -1.000000000000000000, 0.0000000000000000000, -0.0000000000000000000 ) ) ;
#44 = EDGE_CURVE ( 'NONE', #149, #148, #181, .T. ) ;
#45 = EDGE_CURVE ( 'NONE', #151, #148, #183, .T. ) ;
#46 = EDGE_CURVE ( 'NONE', #153, #150, #180, .T. ) ;
#47 = EDGE_CURVE ( 'NONE', #148, #149, #182, .T. ) ;
#48 = EDGE_CURVE ( 'NONE', #154, #152, #186, .T. ) ;
#49 = EDGE_CURVE ( 'NONE', #154, #153, #185, .T. ) ;
#50 = EDGE_CURVE ( 'NONE', #151, #155, #188, .T. ) ;
#51 = EDGE_CURVE ( 'NONE', #152, #150, #187, .T. ) ;
#52 = EDGE_CURVE ( 'NONE', #150, #153, #190, .T. ) ;
#53 = EDGE_CURVE ( 'NONE', #155, #151, #193, .T. ) ;
#54 = EDGE_CURVE ( 'NONE', #155, #149, #194, .T. ) ;
#55 = EDGE_CURVE ( 'NONE', #152, #154, #195, .T. ) ;
#56 = ADVANCED_FACE ( 'NONE', ( #191, #199 ), #29, .F. ) ;
#57 = ADVANCED_FACE ( 'NONE', ( #198 ), #202, .T. ) ;
#58 = ADVANCED_FACE ( 'NONE', ( #201 ), #203, .T. ) ;
#59 = ADVANCED_FACE ( 'NONE', ( #197, #204 ), #71, .F. ) ;
#60 = ADVANCED_FACE ( 'NONE', ( #200 ), #206, .F. ) ;
#61 = ADVANCED_FACE ( 'NONE', ( #205 ), #207, .F. ) ;
#62 = DIRECTION ( 'NONE',  ( -0.0000000000000000000, 0.0000000000000000000, 1.000000000000000000 ) ) ;
#63 = DIRECTION ( 'NONE',  ( -1.000000000000000000, -0.0000000000000000000, -0.0000000000000000000 ) ) ;
#64 = CARTESIAN_POINT ( 'NONE',  ( -39.90653472252495200, 0.0000000000000000000, 0.0000000000000000000 ) ) ;
#65 = DIRECTION ( 'NONE',  ( 0.0000000000000000000, 0.0000000000000000000, 1.000000000000000000 ) ) ;
#66 = DIRECTION ( 'NONE',  ( -1.000000000000000000, -0.0000000000000000000, -0.0000000000000000000 ) ) ;
#67 = CARTESIAN_POINT ( 'NONE',  ( -1.000000000000003600, 31.69999999999999900, 0.0000000000000000000 ) ) ;
#68 = CARTESIAN_POINT ( 'NONE',  ( -39.90653472252495200, 0.0000000000000000000, 0.0000000000000000000 ) ) ;
#69 = DIRECTION ( 'NONE',  ( 0.0000000000000000000, 0.0000000000000000000, 1.000000000000000000 ) ) ;
#70 = DIRECTION ( 'NONE',  ( 0.0000000000000000000, 0.0000000000000000000, 1.000000000000000000 ) ) ;
#71 = PLANE ( 'NONE',  #122 ) ;
#72 = DIRECTION ( 'NONE',  ( 0.0000000000000000000, 0.0000000000000000000, 1.000000000000000000 ) ) ;
#73 = DIRECTION ( 'NONE',  ( 1.000000000000000000, 0.0000000000000000000, 0.0000000000000000000 ) ) ;
#74 = DIRECTION ( 'NONE',  ( 0.0000000000000000000, 0.0000000000000000000, -1.000000000000000000 ) ) ;
#75 = DIRECTION ( 'NONE',  ( -1.000000000000000000, -0.0000000000000000000, -0.0000000000000000000 ) ) ;
#76 = CARTESIAN_POINT ( 'NONE',  ( -39.90653472252495200, 0.0000000000000000000, 0.0000000000000000000 ) ) ;
#77 = DIRECTION ( 'NONE',  ( -1.000000000000000000, -0.0000000000000000000, -0.0000000000000000000 ) ) ;
#78 = CARTESIAN_POINT ( 'NONE',  ( 0.9999999999999940000, 3.086109933851330200E-015, -25.19999999999999900 ) ) ;
#79 = CARTESIAN_POINT ( 'NONE',  ( -39.90653472252495200, 0.0000000000000000000, 0.0000000000000000000 ) ) ;
#80 = CARTESIAN_POINT ( 'NONE',  ( 0.9999999999999940000, 0.0000000000000000000, 31.69999999999999900 ) ) ;
#81 = CARTESIAN_POINT ( 'NONE',  ( -1.000000000000000900, 3.882130353297110200E-015, -31.69999999999999900 ) ) ;
#82 = CARTESIAN_POINT ( 'NONE',  ( -1.000000000000000900, 0.0000000000000000000, 31.69999999999999900 ) ) ;
#83 = CARTESIAN_POINT ( 'NONE',  ( -1.000000000000000900, 0.0000000000000000000, 25.19999999999999900 ) ) ;
#84 = CARTESIAN_POINT ( 'NONE',  ( 0.9999999999999940000, 3.882130353297110200E-015, -31.69999999999999900 ) ) ;
#85 = CARTESIAN_POINT ( 'NONE',  ( 0.9999999999999940000, 0.0000000000000000000, 25.19999999999999900 ) ) ;
#86 = CARTESIAN_POINT ( 'NONE',  ( -1.000000000000000900, 3.086109933851330200E-015, -25.19999999999999900 ) ) ;
#87 = DIRECTION ( 'NONE',  ( 0.0000000000000000000, 0.0000000000000000000, 1.000000000000000000 ) ) ;
#88 = CARTESIAN_POINT ( 'NONE',  ( 0.0000000000000000000, 0.0000000000000000000, 0.0000000000000000000 ) ) ;
#89 =( LENGTH_UNIT ( ) NAMED_UNIT ( * ) SI_UNIT ( .MILLI., .METRE. ) );
#90 =( NAMED_UNIT ( * ) PLANE_ANGLE_UNIT ( ) SI_UNIT ( $, .RADIAN. ) );
#91 =( NAMED_UNIT ( * ) SI_UNIT ( $, .STERADIAN. ) SOLID_ANGLE_UNIT ( ) );
#92 = APPLICATION_PROTOCOL_DEFINITION ( 'international standard', 'config_control_design', 1994, #93 ) ;
#93 = APPLICATION_CONTEXT ( 'configuration controlled 3d designs of mechanical parts and assemblies' ) ;
#94 = DIRECTION ( 'NONE',  ( 1.000000000000000000, 0.0000000000000000000, 0.0000000000000000000 ) ) ;
#95 = MECHANICAL_CONTEXT ( 'NONE', #93, 'mechanical' ) ;
#96 = PERSON_AND_ORGANIZATION_ROLE ( 'design_owner' ) ;
#97 = APPLICATION_CONTEXT ( 'configuration controlled 3d designs of mechanical parts and assemblies' ) ;
#98 = APPLICATION_PROTOCOL_DEFINITION ( 'international standard', 'config_control_design', 1994, #97 ) ;
#99 = APPROVAL_STATUS ( 'not_yet_approved' ) ;
#100 = APPROVAL_ROLE ( '' ) ;
#101 = PERSON_AND_ORGANIZATION_ROLE ( 'creator' ) ;
#102 = DATE_TIME_ROLE ( 'creation_date' ) ;
#103 = APPROVAL_STATUS ( 'not_yet_approved' ) ;
#104 = APPROVAL_ROLE ( '' ) ;
#105 = PERSON_AND_ORGANIZATION_ROLE ( 'creator' ) ;
#106 = PERSON_AND_ORGANIZATION_ROLE ( 'design_supplier' ) ;
#107 = SECURITY_CLASSIFICATION_LEVEL ( 'unclassified' ) ;
#108 = PERSON_AND_ORGANIZATION_ROLE ( 'classification_officer' ) ;
#109 = DATE_TIME_ROLE ( 'classification_date' ) ;
#110 = APPROVAL_STATUS ( 'not_yet_approved' ) ;
#111 = APPROVAL_ROLE ( '' ) ;
#112 = AXIS2_PLACEMENT_3D ( 'NONE', #18, #11, #10 ) ;
#113 = AXIS2_PLACEMENT_3D ( 'NONE', #13, #12, #23 ) ;
#114 = AXIS2_PLACEMENT_3D ( 'NONE', #17, #16, #15 ) ;
#115 = AXIS2_PLACEMENT_3D ( 'NONE', #36, #30, #31 ) ;
#116 = AXIS2_PLACEMENT_3D ( 'NONE', #35, #9, #34 ) ;
#117 = AXIS2_PLACEMENT_3D ( 'NONE', #247, #246, #2 ) ;
#118 = AXIS2_PLACEMENT_3D ( 'NONE', #32, #43, #62 ) ;
#119 =( GEOMETRIC_REPRESENTATION_CONTEXT ( 3 ) GLOBAL_UNCERTAINTY_ASSIGNED_CONTEXT ( ( #37 ) ) GLOBAL_UNIT_ASSIGNED_CONTEXT ( ( #89, #90, #91 ) ) REPRESENTATION_CONTEXT ( 'NONE', 'WORKASPACE' ) );
#120 = AXIS2_PLACEMENT_3D ( 'NONE', #64, #63, #65 ) ;
#121 = AXIS2_PLACEMENT_3D ( 'NONE', #68, #66, #69 ) ;
#122 = AXIS2_PLACEMENT_3D ( 'NONE', #67, #73, #74 ) ;
#123 = AXIS2_PLACEMENT_3D ( 'NONE', #76, #75, #72 ) ;
#124 = AXIS2_PLACEMENT_3D ( 'NONE', #79, #77, #70 ) ;
#125 = AXIS2_PLACEMENT_3D ( 'NONE', #88, #87, #94 ) ;
#126 = CC_DESIGN_PERSON_AND_ORGANIZATION_ASSIGNMENT ( #210, #96, ( #244 ) ) ;
#127 = PRODUCT_DEFINITION ( 'UNKNOWN', '', #132, #4 ) ;
#128 = APPROVAL ( #99, 'UNSPECIFIED' ) ;
#129 = CC_DESIGN_APPROVAL ( #128, ( #127 ) ) ;
#130 = CC_DESIGN_PERSON_AND_ORGANIZATION_ASSIGNMENT ( #218, #101, ( #127 ) ) ;
#131 = CC_DESIGN_DATE_AND_TIME_ASSIGNMENT ( #222, #102, ( #127 ) ) ;
#132 = PRODUCT_DEFINITION_FORMATION_WITH_SPECIFIED_SOURCE ( 'ANY', '', #244, .NOT_KNOWN. ) ;
#133 = APPROVAL ( #103, 'UNSPECIFIED' ) ;
#134 = CC_DESIGN_APPROVAL ( #133, ( #132 ) ) ;
#135 = CC_DESIGN_PERSON_AND_ORGANIZATION_ASSIGNMENT ( #230, #105, ( #132 ) ) ;
#136 = CC_DESIGN_PERSON_AND_ORGANIZATION_ASSIGNMENT ( #231, #106, ( #132 ) ) ;
#137 = SECURITY_CLASSIFICATION ( '', '', #107 ) ;
#138 = CC_DESIGN_PERSON_AND_ORGANIZATION_ASSIGNMENT ( #232, #108, ( #137 ) ) ;
#139 = CC_DESIGN_DATE_AND_TIME_ASSIGNMENT ( #236, #109, ( #137 ) ) ;
#140 = APPROVAL ( #110, 'UNSPECIFIED' ) ;
#141 = CC_DESIGN_APPROVAL ( #140, ( #137 ) ) ;
#142 = CC_DESIGN_SECURITY_CLASSIFICATION ( #137, ( #132 ) ) ;
#143 = PRODUCT_RELATED_PRODUCT_CATEGORY ( 'detail', '', ( #244 ) ) ;
#144 = EDGE_LOOP ( 'NONE', ( #157, #156, #158, #159 ) ) ;
#145 = EDGE_LOOP ( 'NONE', ( #172, #173, #174, #175 ) ) ;
#146 = EDGE_LOOP ( 'NONE', ( #160, #161, #162, #163 ) ) ;
#147 = EDGE_LOOP ( 'NONE', ( #170, #171 ) ) ;
#148 = VERTEX_POINT ( 'NONE', #81 ) ;
#149 = VERTEX_POINT ( 'NONE', #82 ) ;
#150 = VERTEX_POINT ( 'NONE', #83 ) ;
#151 = VERTEX_POINT ( 'NONE', #84 ) ;
#152 = VERTEX_POINT ( 'NONE', #85 ) ;
#153 = VERTEX_POINT ( 'NONE', #86 ) ;
#154 = VERTEX_POINT ( 'NONE', #78 ) ;
#155 = VERTEX_POINT ( 'NONE', #80 ) ;
#156 = ORIENTED_EDGE ( 'NONE', *, *, #49, .T. ) ;
#157 = ORIENTED_EDGE ( 'NONE', *, *, #48, .F. ) ;
#158 = ORIENTED_EDGE ( 'NONE', *, *, #46, .T. ) ;
#159 = ORIENTED_EDGE ( 'NONE', *, *, #51, .F. ) ;
#160 = ORIENTED_EDGE ( 'NONE', *, *, #53, .T. ) ;
#161 = ORIENTED_EDGE ( 'NONE', *, *, #45, .T. ) ;
#162 = ORIENTED_EDGE ( 'NONE', *, *, #44, .F. ) ;
#163 = ORIENTED_EDGE ( 'NONE', *, *, #54, .F. ) ;
#164 = ORIENTED_EDGE ( 'NONE', *, *, #45, .F. ) ;
#165 = ORIENTED_EDGE ( 'NONE', *, *, #50, .T. ) ;
#166 = ORIENTED_EDGE ( 'NONE', *, *, #54, .T. ) ;
#167 = ORIENTED_EDGE ( 'NONE', *, *, #47, .F. ) ;
#168 = ORIENTED_EDGE ( 'NONE', *, *, #52, .F. ) ;
#169 = ORIENTED_EDGE ( 'NONE', *, *, #46, .F. ) ;
#170 = ORIENTED_EDGE ( 'NONE', *, *, #44, .T. ) ;
#171 = ORIENTED_EDGE ( 'NONE', *, *, #47, .T. ) ;
#172 = ORIENTED_EDGE ( 'NONE', *, *, #49, .F. ) ;
#173 = ORIENTED_EDGE ( 'NONE', *, *, #55, .F. ) ;
#174 = ORIENTED_EDGE ( 'NONE', *, *, #51, .T. ) ;
#175 = ORIENTED_EDGE ( 'NONE', *, *, #52, .T. ) ;
#176 = ORIENTED_EDGE ( 'NONE', *, *, #53, .F. ) ;
#177 = ORIENTED_EDGE ( 'NONE', *, *, #50, .F. ) ;
#178 = ORIENTED_EDGE ( 'NONE', *, *, #55, .T. ) ;
#179 = ORIENTED_EDGE ( 'NONE', *, *, #48, .T. ) ;
#180 = CIRCLE ( 'NONE', #248, 25.19999999999999900 ) ;
#181 = CIRCLE ( 'NONE', #3, 31.69999999999999900 ) ;
#182 = CIRCLE ( 'NONE', #112, 31.69999999999999900 ) ;
#183 = LINE ( 'NONE', #33, #184 ) ;
#184 = VECTOR ( 'NONE', #26, 1000.000000000000000 ) ;
#185 = LINE ( 'NONE', #14, #189 ) ;
#186 = CIRCLE ( 'NONE', #113, 25.19999999999999900 ) ;
#187 = LINE ( 'NONE', #25, #192 ) ;
#188 = CIRCLE ( 'NONE', #114, 31.69999999999999900 ) ;
#189 = VECTOR ( 'NONE', #19, 1000.000000000000000 ) ;
#190 = CIRCLE ( 'NONE', #115, 25.19999999999999900 ) ;
#191 = FACE_OUTER_BOUND ( 'NONE', #41, .T. ) ;
#192 = VECTOR ( 'NONE', #8, 1000.000000000000000 ) ;
#193 = CIRCLE ( 'NONE', #116, 31.69999999999999900 ) ;
#194 = LINE ( 'NONE', #6, #196 ) ;
#195 = CIRCLE ( 'NONE', #117, 25.19999999999999900 ) ;
#196 = VECTOR ( 'NONE', #24, 1000.000000000000000 ) ;
#197 = FACE_BOUND ( 'NONE', #40, .T. ) ;
#198 = FACE_OUTER_BOUND ( 'NONE', #146, .T. ) ;
#199 = FACE_BOUND ( 'NONE', #249, .T. ) ;
#200 = FACE_OUTER_BOUND ( 'NONE', #145, .T. ) ;
#201 = FACE_OUTER_BOUND ( 'NONE', #1, .T. ) ;
#202 = CYLINDRICAL_SURFACE ( 'NONE', #120, 31.69999999999999900 ) ;
#203 = CYLINDRICAL_SURFACE ( 'NONE', #121, 31.69999999999999900 ) ;
#204 = FACE_OUTER_BOUND ( 'NONE', #147, .T. ) ;
#205 = FACE_OUTER_BOUND ( 'NONE', #144, .T. ) ;
#206 = CYLINDRICAL_SURFACE ( 'NONE', #123, 25.19999999999999900 ) ;
#207 = CYLINDRICAL_SURFACE ( 'NONE', #124, 25.19999999999999900 ) ;
#208 = SHAPE_DEFINITION_REPRESENTATION ( #5, #39 ) ;
#209 = ORGANIZATION ( 'UNSPECIFIED', 'UNSPECIFIED', '' ) ;
#210 = PERSON_AND_ORGANIZATION ( #245, #209 ) ;
#211 = PERSON_AND_ORGANIZATION ( #245, #209 ) ;
#212 = APPROVAL_PERSON_ORGANIZATION ( #211, #128, #100 ) ;
#213 = COORDINATED_UNIVERSAL_TIME_OFFSET ( 0, 0, .AHEAD. ) ;
#214 = LOCAL_TIME ( 10, 14, 34.00000000000000000, #213 ) ;
#215 = CALENDAR_DATE ( 2013, 7, 2 ) ;
#216 = DATE_AND_TIME ( #215, #214 ) ;
#217 = APPROVAL_DATE_TIME ( #216, #128 ) ;
#218 = PERSON_AND_ORGANIZATION ( #245, #209 ) ;
#219 = COORDINATED_UNIVERSAL_TIME_OFFSET ( 0, 0, .AHEAD. ) ;
#220 = LOCAL_TIME ( 10, 14, 34.00000000000000000, #219 ) ;
#221 = CALENDAR_DATE ( 2013, 7, 2 ) ;
#222 = DATE_AND_TIME ( #221, #220 ) ;
#223 = PERSON_AND_ORGANIZATION ( #245, #209 ) ;
#224 = APPROVAL_PERSON_ORGANIZATION ( #223, #133, #104 ) ;
#225 = COORDINATED_UNIVERSAL_TIME_OFFSET ( 0, 0, .AHEAD. ) ;
#226 = LOCAL_TIME ( 10, 14, 34.00000000000000000, #225 ) ;
#227 = CALENDAR_DATE ( 2013, 7, 2 ) ;
#228 = DATE_AND_TIME ( #227, #226 ) ;
#229 = APPROVAL_DATE_TIME ( #228, #133 ) ;
#230 = PERSON_AND_ORGANIZATION ( #245, #209 ) ;
#231 = PERSON_AND_ORGANIZATION ( #245, #209 ) ;
#232 = PERSON_AND_ORGANIZATION ( #245, #209 ) ;
#233 = COORDINATED_UNIVERSAL_TIME_OFFSET ( 0, 0, .AHEAD. ) ;
#234 = LOCAL_TIME ( 10, 14, 34.00000000000000000, #233 ) ;
#235 = CALENDAR_DATE ( 2013, 7, 2 ) ;
#236 = DATE_AND_TIME ( #235, #234 ) ;
#237 = PERSON_AND_ORGANIZATION ( #245, #209 ) ;
#238 = APPROVAL_PERSON_ORGANIZATION ( #237, #140, #111 ) ;
#239 = COORDINATED_UNIVERSAL_TIME_OFFSET ( 0, 0, .AHEAD. ) ;
#240 = LOCAL_TIME ( 10, 14, 34.00000000000000000, #239 ) ;
#241 = CALENDAR_DATE ( 2013, 7, 2 ) ;
#242 = DATE_AND_TIME ( #241, #240 ) ;
#243 = APPROVAL_DATE_TIME ( #242, #140 ) ;
#244 = PRODUCT ( 'Entry thread seal - Metric and NPT.50 Metric and 1-1[2 NPT', 'Entry thread seal - Metric and NPT.50 Metric and 1-1[2 NPT', '', ( #95 ) ) ;
#245 = PERSON ( 'UNSPECIFIED', 'UNSPECIFIED', 'UNSPECIFIED', ('UNSPECIFIED'), ('UNSPECIFIED'), ('UNSPECIFIED') ) ;
#246 = DIRECTION ( 'NONE',  ( -1.000000000000000000, -0.0000000000000000000, -0.0000000000000000000 ) ) ;
#247 = CARTESIAN_POINT ( 'NONE',  ( 0.9999999999999940000, 0.0000000000000000000, 0.0000000000000000000 ) ) ;
#248 = AXIS2_PLACEMENT_3D ( 'NONE', #22, #21, #20 ) ;
#249 = EDGE_LOOP ( 'NONE', ( #178, #179 ) ) ;
ENDSEC;
END-ISO-10303-21;
